• 0
Bruno e Marrone
(Intro) 
 
 
E|-1-3-1---------1-3-1----------3-4----4s-3-1---1-----------3-3-3-4-3-1-----------| 
B|-------4-4-3-4-------4-4-3-4----------------4---4-3-1-0---------------4-3-1-0-1-| 
G|--------------------------------------------------------------------------------| 
 
 
Cm 
Eu não sei o que é que eu faço 
          Fm 
Estou num beco sem saída 
       Bb                        D#7M 
Não consigo tirar você da minha vida 
    Cm           C7 
Era só uma brincadeira 
    Fm 
Era só uma aventura 
      D/F# 
De repente virou um vício 
      G 
De repente virou loucura 
 
(parte 2) 
Cm 
Eu não sei o que é que eu faço 
                 Fm 
Por que é que eu fui brincar com fogo 
       Bb 
O meu coração se distraiu 
         D#7M 
E entregou o jogo 
     Cm                 C7 
Faço tudo que posso eu luto 
        Fm 
Pra quebrar essa corrente 
       D/F# 
Eu me viro até do avesso 
      G 
Pra parar de pensar na gente 
 
(refrão) 
       C              C7M 
Mas na hora que dá vontade 
        Dm               Dm7M 
Não tem jeito eu não me seguro 
     F              G 
Na batalha com a saudade 
       C            G 
Eu me rendo e te procuro 
      C                C7 
Já cansei de brincar comigo 
         F            Fm 
E não consigo te esquecer 
      C            Dm   G     C 
Eu me sinto acorrentado em você 
 
(solo) C Am  Dm G C C7 F Fm C G 
 
 
E|--------------0-0----1-0-------------0---0---0-1-3-3---1-0---------------1-3-5--3-1-3-| 
B|----0-1---1-3------------1---0---------3-------------------1---------3-0--------------| 
G|---------------------------2---0---0-------------------------0-0-2>4------------------| 
D|-2-3----------------------------------------------------------------------------------| 
A|--------------------------------------------------------------------------------------| 
E|--------------------------------------------------------------------------------------| 
 
 
(parte 2) 
 
(refrão 2x)
Cm
3
4
2
Fm
3
4
Bb
3
4
2
6
D#7M
1
2
3
4
C7
3
2
4
1
D/F#
1
2
4
3
G
2
1
3
4
C
3
2
1
C7M
2
1
Dm
2
3
1
Dm7M
2
3
1
F
3
4
2
Am
2
3
1