• 0
Damares
Intro: A  D  A  E  F#m  D  E4  E 
E|-10b(12)r10-9------10b(12)r10-9-----------------| 
B|--------------------------------10/12-9b(10)r9--| 
G|--------------9/11------------------------------| 
D|------------------------------------------------| 
A|------------------------------------------------| 
E|------------------------------------------------| 
 
A       D    A        E 
Consolador, não sai daqui 
F#m        D               A            E 
Meu peito doi, minha alma chora. Se Tu saíres 
A       D  A        E 
Consolador, mora em mim 
F#m        D           A            E 
Sinto um vazio quando estou longe de Ti 
 
F#m    D       A      E 
Perdoa o meu coração 
F#m       D              A       E 
Das vezes que errei sem perceber 
F#m       D           A     E 
Mas não afaste Sua presença 
Bm          E     D     A 
Teus frutos me fazem viver 
 
F#m          E          D 
Quando minha alma se cansou 
              E        F#m 
Fostes minha força pra seguir 
F#m           E/G#        Bm 
Quando o meu coração calou 
        A/C#            D 
Fostes intercessor, o meu ajudador 
    D#         E 
O meu Consolador Fiel 
E|-10b(12)r10-9------12-------------| 
B|----------------------------------| 
G|--------------9/11----9---------9-| 
D|---------------------------9h11---| 
A|------------------------12--------| 
E|----------------------------------|
A
1
2
3
D
1
3
2
E
1
3
1
F#m
3
4
E4
1
2
3
Bm
2
3
1
E/G#
2
1
3
4
A/C#
2
1
3
4
D#
2
3
4
6