• 0
Jackson Five
(intro) 
------------------------------------------------------------------------------------------------| 
------------------------------------------------------------------------3---/---12--------------| 
------------------------------------------------------------------------------------------------| 
-----3---------------1-----------------------3-------------------1------------------------------| 
 
G------------------------------------------------------------------------------------------------------------|| 
D----------5-------3-------3-----------------------------------5-------3------3------------------------------|| 
A-----------------------------5------4------2--------------------------------------5---5----4----2-----------|| 
E-3-----------------------------------------------------3----------------------------------------------------|| 
 
                                                        -----------------------------------------------------|| 
                                                        -------5-------3--------3----------3-------5---------|| 
                                                        ------------------------------5----------------------|| 
                                                        -3---------------------------------------------------|| 
 
( G  F9  G  F9 )
G
2
1
3
4
F9
3
4
2