Jesus, Alegria dos homens

Johann Sebastian Bach

 
E|-----------------------0-----|-----3--2--3-----------------|--------0--------------------| 
B|-----------0--3--1--1-----3--|--3-----------3--0--------0--|--1--3-----3--1--0-----0--1--| 
G|-----0--2--------------------|--------------------0--2-----|--------------------2--------| 
D|-----------0--------2--------|-----------2-----------------|-----------------------------| 
A|-----------------------------|--2--------------------------|--3--------2--------3--------| 
E|--3--------------------------|--------------------0--------|-----------------------------| 
 
 
E|-----------------------------|-----------------------0-----|-----3--2--3-----------------| 
B|--------------------1--0-----|--0--------0--3--1--1-----3--|--3-----------3--0--------0--| 
G|-----0--2--------2--------2--|-----0--2--------------------|--------------------0--2-----| 
D|--4--------0--4-----0--------|-----------2-----------------|-----------2--------0--------| 
A|--5--------------------------|--------------------3--------|--2--------------------------| 
E|-----------2-----------------|--3--------------------------|-----------------------------| 
 
                                                                G                 D 
E|-----------------------------|-----------3-----------------|--3--------------|-----------------| 
B|-----3--1--0-----------------|-----0--3-----3--0-----0--3--|--0---------1----|--3---------3----| 
G|--------------2--0-----0-----|--0-----------------0--------|--0---------0----|--2--------------| 
D|--2-----------------0-----4--|--------------------0--------|-----------------|-----------------| 
A|--3--------4-----------------|-----------------------------|-----------------|-----------------| 
E|-----------------------------|--3--------------------------|--3----2----0----|--2----3----2----| 
 
 
              G 
E|-----------------|-----------------------------|-----------------------------|-----------------| 
B|--1---------0----|-----------------------1--0--|--1-----------------1--0-----|--0---------1----| 
G|--0---------0----|--2-----------2--0--2--------|-----2-----------2--------2--|--0---------0----| 
D|-----------------|-----0--2--4--------0--------|--0-----4--0--4-----0--------|-----------------| 
A|-----------------|-----------------------------|-----------------------------|-----------------| 
E|--0----2----3----|--0--------------------------|-----------------------------|--3----2----0----| 
 
 
    G 
E|-----------------|-------------------|-----------------------0-----|---------------|| 
B|--3---------0----|-----0-1-0---------|-----0-----0--3--1--1-----3--|---------------|| 
G|--0---------0----|--2-----------2----|--0-----2--------------------|--0------------|| 
D|------------2----|---------0----0----|-----------0--------2--------|--0------------|| 
A|--2----2---------|--3----------------|-----------------------------|--2------------|| 
E|-----------------|-------------------|--3--------------------------|--3------------|| 
 
 
 
-==Versão 2=-- 
 
 
 
E|---------------0---|---3-2-3-----------|-----0-------------| 
B|-------0-3-1-1---3-|-3-------3-0-----0-|-1h3---3-1-0---0---| 
G|---0-2-0-----------|-------------0h2---|-------------2---0-| 
D|-------------2-----|-------2-----------|-------------------| 
A|-------------------|-2-----------------|-0-----2-----3-----| 
E|-3-----------------|-------------0-----|-------------------| 
 
 
 
E|-------------------|---------------0---|---3-2-3-----------| 
B|---------------0---|-0-----0-3-1-1---3-|-3-------3-0-----0-| 
G|---0-2-----2-5---2-|---0h2-------------|-0-----------0h2---| 
D|-4-------4---0-----|-------------------|-------2-----0-----| 
A|-5-----5-----------|-------------3-----|-2-----------------| 
E|-------------------|-3-----0-----------|-------------------| 
 
 
 
E|-------------------|-------3-----------|----------| 
B|---3-1-0-----------|---0-3---3-0---0-3-|-0-----1--| 
G|---------2-0---0---|-0-----------0-----|-0-----0--| 
D|-2---------------4-|-0-----------0-----|-0-----2--| 
A|-3-----4-----5-----|-2-----2-----------|----------| 
E|-------------------|-3-----------------|-3--2--0--| 
 
 
 
E|----------|----------|-------------------| 
B|-3-----3--|-1-----0--|---------------1-0-| 
G|-2--0-----|-0--2--0--|-2-------2-0-2-----| 
D|-0-----0--|-2--0--0--|-4---2-4-----0-----| 
A|-------2--|----------|-5-5---5-----------| 
E|-2--0-----|-0--2--3--|-------------------| 
 
 
 
E|-------------------|----------|----------| 
B|-1-----------1p0---|-0-----1--|-3-----0--| 
G|---2-------2-----2-|-0-----0--|-0--0--0--| 
D|-0---4-0h4---0-----|-0-----2--|-------2--| 
A|-------------------|----------|-2--------| 
E|-------------------|-3--2--0--|----0-----| 
 
 
 
E|--------------|---------------0---|---3-2-3-----------| 
B|---0-1-0------|---0---0-3-1-1---3-|-3-------3-0-----0-| 
G|-2-------0-2--|-0---2-0-----------|-------------0h2---| 
D|-------0---0--|-0-----------2-----|-------2-----------| 
A|-3---------3--|-2-----------------|-2-----------------| 
E|--------------|-------------------|-------------0-----| 
 
 
 
E|-----0-------------|-------------------|---------------0---| 
B|-1h3---3-1-0---0---|-------------1-0---|-0-----0-3-1-1---3-| 
G|-------------2---0-|---0-2-----2-----2-|---0h2-------------| 
D|-------------------|-4-------4---0-----|-------------------| 
A|-0-----2-----3-----|-5-----5-----------|-------------3-----| 
E|-------------------|-------------------|-3-----0-----------| 
 
 
 
E|---3-2-3-----------|-------------------|--------*| 
B|-3-------3-0-----0-|---3-1-0-----------|--------*| 
G|-0-----------0h2---|---------2-0---0---|-^0-----*| 
D|-------2-----0-----|-2-----------0---4-|-^0-----*| 
A|-2-----------------|-3-----4-----------|-^2-----*| 
E|-------------------|-------------------|-^3-----*|

O melhor lugar para ver a cifra de Jesus, Alegria dos homens é no youcifras.com.
A cifra de Jesus, Alegria dos homens de Johann Sebastian Bach servem tanto para violão quanto para guitarra.
Se você gostou da cifra Jesus, Alegria dos homens de Johann Sebastian Bach, não deixe de compartilhar com seus amigos.
Veja todas as cifras de Johann Sebastian Bach.