Neon

John Mayer


(PART I) 
 
E|--------------------------------------------------------------- 
B|------8--------------4--------------4--------------9-------8--- 
G|--------10---------3--------------3---3----------8-------7----- 
D|----0------------3------5-6-----6--------------8------10------- 
A|--------------------------------------------------------------- 
C|-0------------3---------3-5-----5------------8------10--------- 
 
 
(PART II) 
 
E|----------------- 
B|---6----6----4--- 
G|---5----5----3--- 
D|---8----8----6--- 
A|----------------- 
C|---8----7----6--- 
 
 
(PART III) 
 
E|----------------------------------- 
B|---6---6---4---6---6---4---6---4--- 
G|---5---5---3---5---5---3---5---5--- 
D|---8---8---6---8---8---6---8---6--- 
A|----------------------------------- 
C|---8---7---6---8---7---5---7------- 
 
 
(PART IV) 
 
E|-------------------- 
B|---4---6---4----4--- 
G|---3---5---3----3--- 
D|---6---8---5--3h5--- (2x) 
A|-------------------- 
C|---5---7---0-------- 
 
 
(PART V) 
 
E|------------------------ 
B|---4---6---4---11---9--- 
G|---3---5---3---10---8--- 
D|---6---8---5---10---8--- 
A|------------------------ 
C|---5---7---0---10---8--- 
 
 
(PART VI) 
 
E|--------------- 
B|---4-4-----4-4- 
G|---5-5----5-5-- 
D|---6-6---6----- 
A|--------------- 
C|--------------- 
 
 
(PART VII) 
 
E|--------------- --------------------------- 
B|---6---6---4--- ---6---6---4---6---9---11-- 
G|---5---5---3--- ---5---5---3---5---8---10-- 
D|---8---8---6--- ---8---8---6---8---8---10-- 
A|--------------- --------------------------- 
C|---8---7---6--- ---8---7---5---7---8---10-- 
 
 
(PART VIII) 
 
E|------------------ ------------ 
B|--4---6---7----9-- ------------ 
G|--5---7---8---10-- ---11--11/-- 
D|--6---8---9---11-- ---11--11/-- 
A|------------------ ------------ 
C|--5---7---8---10-- --------10-- 
 
 
(PART IX) 
 
E|----------------------------------- 
B|----------------------------------- 
G|-----8---------8--------------8---- 
D|-------------8-------------10------ (repetir) 
A|------------------(0)-------------- 
C|---0-----0h7-----------0h10-------- 
 
 
(I) 
When sky blue gets dark enough 
To see the colors of the city lights 
A trail of ruby red and diamond white 
Hits her like a sunrise 
 
(II) 
She comes and goes and comes and goes 
Like no one can 
 
(I) 
Tonight she's out to lose herself 
And find a high on Peachtree Street 
From mixed drinks to techno beats it's always 
Heavy into everything 
 
(III) 
She comes and goes and comes and goes 
Like no one can 
She comes and goes and no one knows 
She's slipping through my hands 
 
(IV) 
She's always buzzing just like 
Neon, neon 
Neon, neon 
(V) 
Who knows how long, how long, how long 
(VI) 
She can go before she burns away 
 
(I) 
I can't be her angel now 
You know it's not my place to hold her down 
And it's hard for me to take a stand 
When I would take her anyway I can 
 
(VII) 
She comes and goes and comes and goes 
Like no one can 
She comes and goes and no one knows 
She's slipping through my hands 
 
(IV) 
She's always buzzing just like 
Neon, neon 
Neon, neon 
(V) 
Who knows how long, how long, how long 
(VI) 
She can go before she burns away

O melhor lugar para ver a cifra de Neon é no youcifras.com.
A cifra de Neon de John Mayer servem tanto para violão quanto para guitarra.
Se você gostou da cifra Neon de John Mayer, não deixe de compartilhar com seus amigos.
Veja todas as cifras de John Mayer.