• 0
Leonardo
 
Introdução: 
 
 
E|---------------------------------7-----------| 
B|--------------10------------8-10---10-8-7----| 
G|-------7-9/11----11-9-7-7/9---------------7--| 
D|--9-10---------------------------------------| 
A|---------------------------------------------| 
E|---------------------------------------------| 
 
 
 
E|---------8-7-----------------8-7-------| 
B|-------------10-8----------------10-8--| 
G|------------------7--------------------| 
D|--------------------9-7-5-7------------| 
A|--0-2-3--------------------------------| 
E|---------------------------------------| 
 
 
       Dedilhado 1 
       G 
Tinha tudo pra ser 
Bm                    Em       Em4 Em 
 só mais uma aventura sem amor 
  C 
A gente até ja tinha combinado 
             D    Riff 1 
que não era nada sério 
      G             Bm             Em   Em4 Em 
Se tratando de amor tudo é imprevisível 
      C 
O que era uma aventura se tornou uma loucura uma 
 D      (Riff 2) 
obsessão 
 
G         Bm                     Em 
 Tudo aconteceu com um olhar inocente 
           Em                    C 
Mas depois de um beijo ficou diferente 
                               D (Riff 3) 
Foi pintando um doce desejo no ar 
 
Dedilhado 2 
G            Bm                         Em 
Descobri que a agente não escolhe o destino 
            Bm                    C 
No seu colo as vezes pareço um menino 
                        D(Riff 4) 
Querendo ter asas pra voar 
     G 
Era só pra ficar 
Bm                       Em 
A gente foi ficando e acabou se 
      Bm           C 
apaixonando pra valer 
 
O que era só momento ou um simples passa-tempo fez o 
 D         D7 
amor acontecer 
     G 
Era só pra ficar 
Bm                       Em 
A gente foi ficando e acabou se 
      Bm            C 
apaixonando de uma vez 
O que era só momento só um simples passa-tempo se 
    D         D7            G 
perdeu no amor  que agente fez 
 
 
   Riff 1                   Riff 2 
E|----------|-------------|-----------| 
B|--10-8-7--|-------------|-----------| 
G|----------|--7-5-4------|-----------| 
D|----------|--------7-5--|--0-2-4-0--| 
A|----------|-------------|-----------| 
E|----------|-------------|-----------| 
 
 
   Riff 3                   Riff 4 
E|------------------------|----------------------- 
B|--10--8-7---------------|---------------7-8-10-- 
G|----------9-7-----------|-----------7-9--------- 
D|--------------10-9-7-5--|----7-9-10------------- 
A|------------------------|--9-------------------- 
E|------------------------|----------------------- 
 
 
              Riff 5 
E|--7-8-10--|-------------| 
B|----------|-------------| 
G|----------|-------------| 
D|----------|--5-4-2-0----| 
A|----------|----------2--| 
E|----------|-------------| 
 
 
   Riff 2 
E|--(19)7x-(17)7x-(15)7x-----------| 
B|----------------------------7-8--| 
G|------------------------7-9------| 
D|---------------------------------| 
A|---------------------------------| 
E|---------------------------------| 
 
 
   Dedilhado 1 
E|---------7------|--------7------| 
B|-------8---8----|------7---7----| 
G|-----7-------7--|----7-------7--| 
D|----------------|--9------------| 
A|--10------------|---------------| 
E|----------------|---------------| 
 
 
   Dedilhado 2 
E|----7-----7-----7-----7-----8-----8-------10--| 
B|--8-----7-----8-----7-----8-----8------10-----| 
G|------7-----9-----7-----9-----9-----11--------| 
D|----------------------------------------------| 
A|----------------------------------------------| 
E|----------------------------------------------| 
 
 
 
E|-------7----------7------------ 
B|---------8----------7------8-8- 
G|-----7-----7----7-----7-------- 
D|--------------9---------10----- 
A|--10--------------------------- 
E|-------------------------------


G
2
1
3
4
Bm
2
3
1
Em
1
2
Em4
1
C
3
2
1
D
1
3
2
D7
2
1
3