Seek And Destroy

Metallica


(primeira parte) (riff da intro) 
 
 
E|-----------------------------------------------------------------| 
B|-----------------------------------------------------------------| 
G|-----7h8-7------------------5-------7h8-7-------------------5----| 
D|------------7h8-7-------5-----7-------------7h8-7-------5-----7--|   (4x) 
A|-0-0------0--------0-8-7---7-----0-0-------0-------0-8-7---7-----| 
E|-----------------------------------------------------------------| 
 
 
 
E|---------------------------------------------------------| 
B|---------------------------------------------------------| 
G|-7/9-7---7-----------------------------------------------| 
D|-------9---9-8-7\5---------------------------------------| 
A|---------------------------------------------------------| 
E|---------------------------------------------------------| 
 
 
(segunda parte) 
 
E|---------------------------------------------------------| 
B|---------------------------------------------------------| 
G|---------------------------------------------------------|     (8x) 
D|----------5-7-5-7----------------------------------------| 
A|----------5-7-5-7---------7-5----------------------------| 
E|-0-0-0-0----------0-0-0-0-----7-6------------------------| 
 
 
(terceira parte) 
 
E|--------------------------------------| 
B|--------------------------------------| 
G|--------------------------------------| 
D|------------------------------5-------| (8x - o James começa a cantar a partir da 5 vez) 
A|--------------------------------7-----| 
E|-0-0-0-0-0-0-0-0-0-0-0-0--7-6---------| 
 
 
(pré-refrão) 
 
E|-----------------------------------------------------------------| 
B|-----------------------------------------------------------------| 
G|--5-------5/7-5-5-------5/7-5-5--------5/7--5--7-5---------------| 
D|--5-------5/7-5-5-------5/7-5-5--------5/7--5------7-6-5---------| 
A|----0-0-0---------0-0-0---------0-0-0--------------------7-6-5---| 
E|-----------------------------------------------------------------| 
 
 
 
E|-----------------------------------------------------------------| 
B|-----------------------------------------------------------------| 
G|--5-------5/7-5-5-------5/7-5-5--------5/7--5-7/9-7---7----------| 
D|--5-------5/7-5-5-------5/7-5-5--------5/7--5------9---9-8-7\5---| 
A|----0-0-0---------0-0-0---------0-0-0----------------------------| 
E|-----------------------------------------------------------------| 
 
 
 
E|----------------------| 
B|----------------------| 
G|---7/9-7---7----------| 
D|---------9---9-8-7\5--| 
A|----------------------| 
E|----------------------| 
 
 
(refrão) 
 
E|------------------------------------------------| 
B|------------------------------------------------| 
G|------------------------------------------------|     (4x) 
D|--12-11-10-9------------------------------------| 
A|--10-9--8--7------------------------------------| 
E|-------------0-0-0-0-0-0-0-0-0-0-0-0-0-0-0------| 
 
 
(quarta parte) 
 
E|-----------------------------------------------------------------| 
B|-----------------------------------------------------------------| 
G|------------------5--------------4-------------------------------| 
D|--5-----7-----7---5-----7----7---4-----7-----7---------3-2-0-----|    (4x) 
A|--0-0-0---0-0---0---0-0--0-0---0---0-0---0-0---0-3-2-0-------3-0-| 
E|-----------------------------------------------------------------| 
 
 
(solo base) 
 
E|-----------------------------------------------| 
B|-----------------------------------------------| 
G|-----------------------------------------------| 
D|-12-11-10-9------------------------------------| 
A|-10-9--8--7------------------------------------| 
E|-------------0-0-0-0-0-0-0-0-0-0-0-0-0-0-0-----| 
 
 
 
E|-----------------------------------------------| 
B|-----------------------------------------------| 
G|-----------------------------------------------| 
D|-12-11-10-9------------------------------------| 
A|-10-9--8--7------------------------------------| 
E|-------------0-0-0-0-0-0-0-0-0-0-0-0-0-0-0-----| 
 
 
 
E|-----------------------------------------------| 
B|-----------------------------------------------| 
G|-----------------------------------------------| 
D|-12-11-10-9------------------------------------| 
A|-10-9--8--7------------------------------------| 
E|-------------0-0-0-0-0-0-0-0-0-0-0-0-0-0-0-----| 
 
 
 
E|-------------------------------------------------------------------| 
B|-------------------------------------------------------------------| 
G|-------------------------------------------------------------------| 
D|-12-11-10--------------5-------------4-----------------------------| 
A|-10-9--8--5-----7---7--5----7----7---4----7-----7-------3-2-0------| 
E|------------0-0--0-0--0--0-0--0-0--0---0-0--0-0---3-2-0-------3-0--| 
 
 
 
E|-----------------------------------------------------------| 
B|-----------------------------------------------------------| 
G|-----------------------------------------------------------| 
D|---------------5-------------4-----------------------------| 
A|--5-----7---7--5----7----7---4----7-----7-------3-2-0------| 
E|----0-0--0-0--0--0-0--0-0--0---0-0--0-0---3-2-0-------3-0--| 
 
 
 
E|-----------------------------------------------------------| 
B|-----------------------------------------------------------| 
G|-----------------------------------------------------------| 
D|---------------5-------------4-----------------------------| 
A|--5-----7---7--5----7----7---4----7-----7-------3-2-0------| 
E|----0-0--0-0--0--0-0--0-0--0---0-0--0-0---3-2-0-------3-0--| 
 
 
 
E|-----------------------------------------------------------| 
B|-----------------------------------------------------------| 
G|-----------------------------------------------------------| 
D|---------------5-------------4-----------------------------| 
A|--5-----7---7--5----7----7---4----7-----7-------3-2-0------| 
E|----0-0--0-0--0--0-0--0-0--0---0-0--0-0---3-2-0-------3-2--| 
 
 
 
E|----------------------| 
B|----------------------| 
G|----------------------| 
D|-----------------2----| 
A|-------3-2-0-----0----| 
E|-3-2-0-------3-2------| 
 
 
(parte final) 
 
(parte 1) 
 
E|--------------------------------------------------------------------------| 
B|--------------------------------------------------------------------------| 
G|--------------------------------------------------------------------------| 
D|-12-11-----11-10-----10-9-------------12-11---11--------------------------|  (4x) 
A|-10-9------9--8------8--7-------------10-9----9--12-----12-14-------------| 
E|-------0-0-------0-0------0-0-0-0-0-0------0-0---10-0-0-10-12-0-0-0-0-0-0-| 
 
 
(parte 2) 
 
E|-----------------------------------------| 
B|----------------------------------------| 
G|----------------------------------------| 
D|------2---------------------------------| 
A|------2------5-----4-----5-----7\5------| (8x) 
E|-0-0--0--0-0-3-0-0-2-0-0-3-0-0-5\3------| 
 
 
(parte 3) 
 
E|-------------------------------------------------------------------| 
B|----------------------------------------------------------------8--| 
G|-----7/9-7--7--------7/9-7---7--------7/9-7---7-----------------7--| 
D|----------9--9-8-7\5------9---9-8-7\5-------9---9-8-7\5---------5--| 
A|----------------------------------------------------------------7--| 
E|-0-0----------------------------------------------------0-0-0-0----| 
 
 
(solos) 
 
 
(1) 
 
 
E|------12-15p12----12-15p12-17p12-15p12-----| 
B|-12/15---------15--------------------------| 
G|-------------------------------------------| 
D|-------------------------------------------| 
A|-------------------------------------------| 
E|-------------------------------------------| 
 
 
 
 
E|---12-15p12-17p12-15p12----12----12-------| 
B|-15---------------------15----15----15b17-| 
G|------------------------------------------| 
D|------------------------------------------| 
A|------------------------------------------| 
E|------------------------------------------| 
 
 
 
(2) 
 
 
E|-7-7-7-10p7----7-7------------------------------| 
B|------------10-----10p7-10p7--------------------| 
G|-----------------------------9-7---7-9b11r9p7---| 
D|---------------------------------9------------9-| 
A|------------------------------------------------| 
E|------------------------------------------------| 
 
 
(3) 
 
 
E|-17b19-------16-15-14-----------------------| 
B|----------15----------15-14-------15b17r15*-| 
G|-------15-------------------16--------------| 
D|-------------------------------17-----------| 
A|--------------------------------------------| 
E|--------------------------------------------| 
 
 
 
(4) 
 
(4 pt 1) 
 
 
E|-----20-20-23-20-18-22-19-19-21-21-17-15-| 
B|-/23-------------------------------------| 
G|-----------------------------------------| 
D|-----------------------------------------| 
A|-----------------------------------------| 
E|-----------------------------------------| 
 
 
 
 
 
E|-19-16-14-14-17-14-12-16-12-11-14-12\11-| 
B|----------------------------------------| 
G|----------------------------------------| 
D|----------------------------------------| 
A|----------------------------------------| 
E|----------------------------------------| 
 
 
 
(4 pt2) 
 
 
E|-9p7-10p7--7-10-7---------------------------------| 
B|---------10------10-7-10p7-------7----------------| 
G|---------------------------9-7-9---9-9b11r9p7---7-| 
D|----------------------------------------------9---| 
A|--------------------------------------------------| 
E|--------------------------------------------------| 
 
 
(4 pt 3 ) 
 
 
E|-------------------------------------------| 
B|-------------------------------------------| 
G|------------------------7-7-9-9b10r9p7-9-7-| 
D|------------7-9p7---7h9--------------------| 
A|------5h7/9-------9------------------------| 
E|5-5-7--------------------------------------| 
 
 
 
 
E|--------------------------------------| 
B|------------7-10p7--------------------| 
G|---7-9-9b11--------9-7---7-9b11r9p7-9-| 
D|-9---------------------9--------------| 
A|--------------------------------------| 
E|--------------------------------------| 
 
 
(4 pt 4) 
 
 
E|-----------------12----------------| 
B|-----12-15-15b17----15-12-15-15b17-| 
G|-/14-------------------------------| 
D|-----------------------------------| 
A|-----------------------------------| 
E|-----------------------------------| 
 
 
 
 
E|-12----------------12----------------12---12-| 
B|----15-12-15-15b17----15-12-15-15b17---15----| 
G|---------------------------------------------| 
D|---------------------------------------------| 
A|---------------------------------------------| 
E|---------------------------------------------| 
 
 
 
(4 pt 5) 
 
 
E|-15p12----------------------------------------| 
B|-------15-12----12-15p12----------------------| 
G|-------------14----------14-12----12-14p12----| 
D|-------------------------------14----------14-| 
A|----------------------------------------------| 
E|----------------------------------------------| 
 
 
 
E|----------------| 
B|----------------| 
G|----------------| 
D|-12-------------| 
A|----14--12------| 
E|-----------15---| 
 
 
 
(4 pt 6) 
 
 
 
E|------------------------------------| 
B|------------------------------------| 
G|---------------------------------12-| 
D|----------------12---12-14-12-14----| 
A|----12-14-12-14---14----------------| 
E|-15---------------------------------| 
 
 
 
 
E|----------------------------------12----12-15p12-| 
B|----------------12----12-15-12-15----15----------| 
G|----12-14-12-14----14----------------------------| 
D|-14----------------------------------------------| 
A|-------------------------------------------------| 
E|-------------------------------------------------| 
 
 
 
 
E|--------------------------| 
B|-15-12----12-15p12--------| 
G|-------15----------14-12\-| 
D|--------------------------| 
A|--------------------------| 
E|--------------------------|

O melhor lugar para ver a cifra de Seek And Destroy é no youcifras.com.
A cifra de Seek And Destroy de Metallica servem tanto para violão quanto para guitarra.
Se você gostou da cifra Seek And Destroy de Metallica, não deixe de compartilhar com seus amigos.
Veja todas as cifras de Metallica.